Autoscroll Speed
Start AutoscrollingStop Autoscrolling Decrease Autoscrolling speed1Increase Autoscrolling speed

Do You Remember by Jack Johnson


Tabbed by Jacob Swain

 

Intro/Verse
e------------------------------------------------------------------------|
b------------3--3---3--3-3-----------------3-3--------------3------------|
g------------2--2h4----4-2---2-2-----------0-0--------------2------------|
d-----0-2-0--0---------------2-2-2/4-2-0---0-0-----0-2-0----0------------|
a-1/2----------------------0---------------2-2-1/2-------------0---------|
E----------------------------------------3-3-3---------------------------|

e------------------------------------------------------------------------|
b------------3--3---3--3-3------------------3--3---------------3---------|
g------------2--2h4----4-2---2-2------------0--0---------------2----2----|
d-----0-2-0--0---------------2-2--2/4-2-0---0--0--0h2-0h2--0---0----2----|
a-1/2----------------------0----------------2--2------------------0-0----|
E-----------------------------------------3-3--3-------------------------|


 

Do You Remember (2) by Jack Johnson

 

Tabbed By: Nick Trujillo

 

This is 100% correct. Standard Tuning

Intro\Verse
e-----------5--------------5------------3-------------5--5--------|
b-----------7--------------5------------3-------------7--5--------|
g-----------7------7-------6------------4-------------7--6--------|
d-----------7--7h9---9-7---7------------5-------------7--7--------|
a----5-7--5-5--------------7--/9-7-5----5-------5-7-5-5--7--------|
E-/7---------------------5-5----------3-3---5/7----------5--------|

 

e-----------5--------------5------------3----------------5--5--------|
b-----------7--------------5------------3----------------7--5--------|
g-----------7------7-------6------------4----------------7--6--------|
d-----------7--7h9---9-7---7------------5----------------7--7--------|
a----5-7--5-5--------------7--/9-7-5----5-5/7--5/7-5---5-5--7--------|
E-/7---------------------5-5----------3-3------------7------5--------|

 

e-----------5--------------5------------3-3------5--5--------|
b-----------7--------------5------------3-3------7--5--------|
g-----------7------7-------6------------4-4------7--6--------| 3 times
d-----------7--7h9---9-7---7------------5-5------7--7--------|
a----5-7--5-5--------------7--/9-7-5----5-5----5-5--7--------|
E-/7---------------------5-5----------3-3-3---------5--------|

 

CHORUS      Play the E minor quickly and then directly to the verse
e---5-5--------------------------5---3---2---7--|
b---5-5-------12----12----8-8----5---3---2---8--|
g---6-6-------12----12----9-9----6---4---2---9--|
d---7-7-------12----12----9-9----7---5---4---9--|
a---7-7-----10----9-----7-7-7----7---5---4---7--|
E-5-5-5------------------------5-5-3-3-2-2------|

 

-Verse-

e----------5--------------5------------3-3------5--5--------|
b----------7--------------5------------3-3------7--5--------|
g----------7------7-------6------------4-4------7--6--------| 4 times
d----------7--7h9---9-7---7------------5-5------7--7--------|
a----5-7-5-5--------------7--/9-7-5----5-5----5-5--7--------|
E-/7--------------------5-5----------3-3-3---------5--------|

-CHORUS-

 

OUTRO
e------------------|
b------------------|
g------------------|
d------------------|
a-------5-7-7/9-5--|
E--5/7-------------|