Autoscroll Speed
Start AutoscrollingStop Autoscrolling Decrease Autoscrolling speed1Increase Autoscrolling speed

Do You Remember  by Jack Johnson

Tabbed by:  Martin Smets

This is a great song and much easier to play if you sing along with it.
Peace.

Tuning: standard

Intro        Verse

e|----------||--2---2----2-------------------------3-33-----------2-22--------------||
B|----------||.-3---3-----3--------2--22-----------0--0-----------3-33-------------.||
G|----------||--2----2h4-----4-2---2--22-----------0--0-----------2--2--------------||
D|----0-2-0-||---------------------2---2---4-2-0---0--------0-2-0------------0-2-0--||
A|1/2-------||.-----------------0--------0----------------2------------0-1/2-------.||
E|----------||-----------------------------------3------3---------------------------||

Do you remember  when we first.......

Chorus

A

e|---0--00--|
B|---2--22--|  Repeat 4X
G|---2--22--|
D|---2--22--|
A|-0--------|
E|----------|

All these times...

Bm

e|---2--22--|
B|---3--33--|  Repeat 2X
G|---4--44--|
D|---4--44--|
A|---2------|
E|-2--------|

Over ten years have.....

Em

e|---0--00--|
B|---0--00--| Repeat 6X
G|---0--00--|
D|---2--22--|
A|-2--------|
E|-0--------|

..by ...we're lost in time....

A         G        Fm     A

e|---0--00----3--33----2--22--0-------------|
B|---2--22----3--33----2--22--2-------------|
G|---2--22----4--44----2--22--2-------------|
D|---2--22----5--55----4--44--2-------0-2-0-|
A|-0----------5--55----4--44--0-0-1/2-------|
E|----------3--------2----------------------|

..mine.                           Do you re

Back to verse

This is the last part of the final chorus at the end of the song

A         G        Fm     A              END

e|---0--00----3--33----2--22--0-------------2-||
B|---2--22----3--33----2--22--2-------------3-||
G|---2--22----4--44----2--22--2-------------2-||
D|---2--22----5--55----4--44--2-------0-2-0-0-||
A|-0----------5--55----4--44--0-0-1/2---------||
E|----------3--------2------------------------||

--------------------|

| / slide up
| \ slide down
| h hammer-on
| p pull-off
| ~ vibrato
| + harmonic
| x Mute note

Tabbed by Wes Cooke (taken from the jackjohnsonmusic.com/forums)

Intro/Verse
e----------5-------------5------------3-------5--5-----------|
b----------7-------------5------------3-------7--5-----------|
g----------7------9------6------------4-------7--6-----------|
d----------7--7h9---9-7--7------------5-------7--7-----------|
a----5-7-5-5-------------7--/9-7-5----5-------7-----5-7-5-|
E-/7---------------------5----------3-3-------5-/7--------|

CHORUS
e--5----------------------5---3---2---0--|
b--5--------7----7----8---5---3---2---0--|
g--6--------7----7----9---6---4---2---1--|
d--7--------7----7----9---7---5---4---2--|
a--7------9----7----7-7---7---5---4---2--|
E--5--------------------5-5-3-3-2-2-0-0--|