Autoscroll Speed
Start AutoscrollingStop Autoscrolling Decrease Autoscrolling speed1Increase Autoscrolling speed

Good People by Jack Johnson

Tab update sent in by Sarmento (3/1/05)

In the bridge I don't think it is B => E => C#m => F# => (B), I think it is E => B => C#m => F# => (E),

try it and see if it's any good

Also in the introduction and solo I think that instead of being

e|----------------------------------------------------------|
b|-------------------------------9----9---------------------|
g|-------9b11-11r9p7---7vv-------9h11-9-7vv-----------------|
d|-------------------9----------------------9v--------------|
a|----------------------------------------------------------|
E|-7--7--------------------9--9-----------------------------|

It should be
e|----------------------------------------------------------|
b|-------------------------------9----9---------------------|
g|-------9b10-10r9p7---7vv-------9h11-9-7vv-----------------|
d|-------------------9----------------------9v--------------|
a|----------------------------------------------------------|
E|-7--7--------------------9--9-----------------------------|