Autoscroll Speed
Start AutoscrollingStop Autoscrolling Decrease Autoscrolling speed1Increase Autoscrolling speed

Good People by Jack Johnson

From In Between Dreams (due out 3/1/05)
Tabbed by TheBigKevDogg (jackjohnsonmusic.com/forums; used with permission, 2/23/05)

Intro
e|----------------------------------------------------------|
b|-------------------------------11--9--7-7-----------------|
g|-------9b11-11r9p7---7vv-------11--9--7-7-----------------|
d|-------------------9----------------------11--------------|
a|----------------------------------------------------------|
E|-7--7--------------------9--9-----------------------------|

e|----------------------------------------------------------|
b|----------------------------------------------------------|
g|-------9b11-11r9p7---7vv-------11-11-9-11-9---------------|
d|-------------------9------------------------11------------|
a|----------------------------------------------------------|
E|-7--7--------------------9--9-----------------------------|

Verse/Chorus

B E C#m F#

e|-------7-------------7----------9----------9--------------|
b|-------7-------------9----------9----------11-------------|
g|-------8-------------9----------9----------11-------------|
d|-------9-------------9----------11---------11-------------|
a|-------9----7--7--7-------------11---9--9--9--------------|
E|-7--7--7------------------9--9--9-------------------------|

Riff that starts at chorus and continues on except bridge

B E C#m F#

e|----------------------------------------------------------|
b|----------------------------------------------------------|
g|----------------------------------------------------------|
d|----------------------------------------------------------|
a|-------(4)/6-7--7----9/11---------13/11-9--9----7/9-------|
E|-7--7---------------------9--9----------------------------|

When playing, combine this with the chorus (definitely) and verse (up to you, it's there but not as loud)

Mini-solo

e|----------------------------------------------------------|
b|-------------------------------9----9---------------------|
g|-------9b11-11r9p7---7vv-------9h11-9-7vv-----------------|
d|-------------------9----------------------9v--------------|
a|----------------------------------------------------------|
E|-7--7--------------------9--9-----------------------------|

e|----------------------------------------------------------|
b|----------------------------------------------------------|
g|-------9b11-11r9p7---7vv-------11-9-11-9-11-9-9-----------|
d|-------------------9-----------------------------9--------|
a|----------------------------------------------------------|
E|-7--7--------------------9--9-----------------------------|

Bridge (listen for strum and timing)

B => E => C#m => F# => (B)

e|-7------7--7------8--9------9--9------8-------------------|
b|-9------7--7------8--9------9--11-----10------------------|
g|-9------7--8------9--9------9--11-----10------------------|
d|-9------7--9------10-11-----9--11-----10------------------|
a|-7------7--9------10-11-----9--9------8-------------------|
E|-----------7------8--9------------------------------------|

Good People (2) by Jack Johnson

From In Between Dreams (due out 3/1/05)
Tabbed by John B.  (used with permission, 2/22/05)

Intro
e|--x-x-x-------------------------9-------------------------|
b|--x-x-x-------------------------9---/11---9---7---7-------|
g|--x-x-x-------9b---9p7--------------/11---9---7---7-------|
d|--x-x-x----------------9----------------------------------|
a|--x-x-x---------------------------------------------------|
E|--x-x-x-7--7--------------9--9----------------------------|
1 1 3 3 1 3 1 1 1

e|---------------------------7------------------------------|
b|---------------------------7------------------------------|
g|---------9b---9p7--------------9--9--7--9--7--9--7--------|
d|------------------9------------9--9--9--9--9--9--9--------|
a|----------------------------------------------------------|
E|---7--7--------------7--7---------------------------------|

Verse
e|--------7----------7----------9-----------9---------------|
b|--------7----------9----------9-----------11--------------|
g|--------8----------9----------9-----------11--------------|
d|--------9----------9----------11----------11--------------|
a|--------9----7--7--7----------11----9--9--9---------------|
E|--7--7--7---------------9--9--9---------------------------|

Chorus (Where’d all the good people go...)
e|--------7------------7-------------9-------------9-------|
b|--------7------------9-------------9-------------9-------|
g|--------8------------9-------------9-------------11------|
d|--------9------------9-------------11------------11------|
a|--------9------7--7--7--/11--------11--\7--9--9--9-------|
E|--7--7--7--10----------------9--9--9-----------------/10-|

Solo/Intro #2
e|---------------------------9-----9--7---------------------|
b|---------------------------9----x------9------------------|
g|---------9b---9p7--------------x------------9-------------|
d|------------------9---------------------------------------|
a|----------------------------------------------------------|
E|---7--7--------------9--9---------------------------------|
1 1 3 3 1 3 1 1 1

e|---------------------------7------------------------------|
b|---------------------------7------------------------------|
g|---------9b---9p7--------------9--7--9--7--9--7--9--------|
d|------------------9------------9--9--9--9--9--9---9\------|
a|----------------------------------------------------------|
E|---7--7--------------7--7---------------------------------|

Bridge
e|----7----------7----------9-----------9---------------|
b|----7----------9----------9-----------11--------------|
g|----8----------9----------9-----------11--------------|
d|----9----------9----------11----------11--------------|
a|----9----------7----------11----------9---------------|
E|----7---------------------9---------------------------|