Autoscroll Speed
Start AutoscrollingStop Autoscrolling Decrease Autoscrolling speed1Increase Autoscrolling speed

No Other Way by Jack Johnson

Update from Derek Rossler: Here is a simpler way to play the intro, use Henning's version for the rest.

Intro
-----

e|------------------------------------------------------------------|
B|------------------------------------------------------------------|
G|-------7--------------------------------0----------------------|
D|---7/9---9--0-------7/4-0-----7/9-----9--0---------7/4-0------|
A|-------------------7/9-------------------------------7/9-------|
D|-0---------------0--------------0----------------0--------------|

Update from Cody: The No Other Way tab seems correct except that on the album version he

plays with a capo on the 3rd fret.  I think it is tabbed on the 2nd because that is how he

plays it on the AOL video.

Tabbed by: Henning Koetter

Tuning: Dropped D, Capo 2nd fret

Intro
-----

e|------------------------------------------------------------------|
B|------------------------------------------------------------------|
G|-------7-----------------------------------0----------------------|
D|---7/9---9--0----------7--------0----7/9-----9--0---------7-------|
A|-------------------7/9---9\5-------------------------7/9------9/5-|
D|-0---------------0----------------0----------------0--------------|

Verse
-----

e|------------------------------------------------------------------|
B|------------------------------------------------------------------|
G|------------------------------------------------------------------|
D|-4------4------4-----4\2-0-----------5-----5------5----\----------|
A|----5-----5-----5----------------5-----5-----5------5--\----------|
D|------0-----0-----0--------0---5---5-----5-----5-----5-\----------|

When you're mind is a mess...

e|------------------------------------------------------------------|
B|------------------------------------------------------------------|
G|------------------------------------------------------------------|
D|-----2-----2-----2------/--------5-----5-----5------0-------------|
A|---2---2-----2-----2----/----5-----5-----5-----5------------------|
D|-2--2----2-----2-----2--/--5---5-----5-----5-----5----------------|

Chorus
------

e|------------------------------------------------------------------|
B|------------------------------------------------------------------|
G|------------------------------------------------------------------|
D|-------4-----0------7/5-4--5p4/2-0--------------------------------|
A|---5-----5-------0--------------------repeat 3x, then end on------|
D|-0---0-----0---------------5-------0------------------------------|

e|------------------------------------------------------------------|
B|------------------------------------------------------------------|
G|------------------------------------------------------------------|
D|--------2-----2-----2------/--------5-----5-----5-----0-----------|
A|----2-----2-----2-----2----/----5-----5-----5-----5---------------|
D|--2---2-----2-----2-----2--/--5---5-----5-----5-----5-------------|

...other way...mh, mh, mh

2x Intro
2x Verse
1X Chorus
2X Intro
2x Verse
1x Chorus
1x Intro

| / slide up
| \ slide down
| h hammer-on
| p pull-off
| ~ vibrato
| + harmonic
| x Mute note

No Other Way (2) by Jack Johnson

Tabbed by Jutuerna (taken from the jackjohnsonmusic.com/forums)

Capo on 2nd Fret
Tab Relative to capo

INTRO
E|--------------------------------------------------|
B|-8------8------------8--8--8------8-----8-----h8--|
G|-8h10---8h10--10~----8--8--8h10---8h10--8~-8h10---|
D|--------------------------------------------------|
A|--------------------------------------------------|
D|--------------------------------------------------|

E|-------------------------------------------------------------|
B|-------------------------------------------------------------|
G|------7-------------------------------0----------------------|
D|---7/9--h9-----------7------------7/9---h9-------------7-----|
A|-----------------7/9---95---0----------------0----7/9---9/5-|
D|-0-----------00------------0---0------------0---0------------|

VERSE
E|--------------------------------------------------------|
B|--------------------------------------------------------|
G|--------------------------------------------------------|
D|---4--4--4-52p0----5--5--5-5----2--2--2--2-/-5--5--5--5-|
A|--5--5--5---------5--5--5------2--2--2----/-5--5--5-----|
D|-0--0--0--------5--5--5---5--2--2--2--2-/-5--5--5---5---|

CHORUS
E|-------------------------------------------------|
B|-------------------------------------------------|
G|-------------------------------------------------|
D|---4-4--7-5/4-5/2p0------------------------------|
A|--5-5--------------------------------------------|
D|-0-0---------0-----------------------------------|

e|----------------------------------------------------------------|
B|----------------------------------------------------------------|
G|----------------------------------------------------------------|
D|------2--2--2-2---5--5--5--5------------------------------------|
A|----2--2--2------5--5--5----------------------------------------|
D|--2--2--2--2----5--5--5--5--------------------------------------|