Autoscroll Speed
Start AutoscrollingStop Autoscrolling Decrease Autoscrolling speed1Increase Autoscrolling speed

Situations by Jack Johnson

Tabbed by Pat McInnis (pat@patmcinnis.com)

This is done in the typical Jack strumming pattern.

E-----------------------

B-----------------------

G-----------------------

D-------6----6----8--6--

A--6----x----7----9--7--

E--7----7---------------

E----------------------------------

B----------------------------------

G----------------------------------

D----------------------------------

A--6----11--9-----7--4----2--4--6--

E--7----12--11----9--5----4--2--2--

Second Guitar Part:

E-------------------------------------

B-------------------------------------

G--8----13--11----9---6----4--6----8--

D--9----14--13----11--7----6--4----6--

A-------------------------------------

E-------------------------------------