Autoscroll Speed
Start AutoscrollingStop Autoscrolling Decrease Autoscrolling speed1Increase Autoscrolling speed

Staple It Together by Jack Johnson

Tabbed by: Henning Kötter (henning.koetter@gmx.de)

Tuning: Standard (EADGBe)

Used chords

a7 5-7-5-5-5-5
D7 x-5-7-5-7-5
G7 3-5-3-4-3-3
C7 x-3-5-3-5-3

Intro and verse: a7 - D7 - a7 - D7 (on and on), try to give a funky 

sound to it by moving your right hand up and down constantly, hit some mute 

notes (hope you know what I mean) 

little riff in between:

e|------------------------|
B|------------------------|
G|------------------------|
D|------------------------|
A|-----------3--5---------|
E|--5-----5---------------|

Its really
Too bad
He became a prisoner of his own past
He stabbed a moment in the back
With a brown thumb tack
That held up the list of things he gotta do
Its really,
No good
He's moving on before he understood
He shot the future in the foot with every step it took
From the faces that he knew cause he forgot to look

Chorus:

	a7			D7
Better staple it together and call it bad weather
G7			C7
Staple it together and call it bad weather X3
Mm hmm

Well I guess you could say
That he don't even know where to begin
Cause he looked both ways but he was so afraid
Diggin deeper through the ditch
With every chance he missed
And the mess he made
Cause hate is such a strong word
And every brick he laid
A mistake they say
That his walls are getting taller
His world is getting smaller

Better staple it together and call it bad weather
Staple it together and call it bad weather X3
Mm hmm

Solo

e|--5---5------------------------5---5----------------------5--5-------------------5--5------7s8--7--5-|
B|--5---5---7--5--7--7b9p5-------5---5-----------5--5-------5--5---7--7---7-7-5-5--5--5------7s8--7--5-|
G|--5---5---7--5--7--7b9p5-------5---5-----------5--5-------5--5---7--7---7-7-5-5--5--5----------------|
D|--5---5------------------7--5--5---5----------------7--5--5--5-------------------5--5----------------|
A|--7---7------------------------7---7---5--7--5------------7--7-------------------7--7----------------|
E|--5---5------------------------5---5----------------------5--5-------------------5--5----------------|

Its really
Too bad
He became a prisoner of his own past
He stabbed a moment in the back
With a brown thumb tack
That held up the list of things he gotta do
Its really,
No good
Hes moving on before he understood
He shot the future in the foot with every step it took
From the faces that he knew cause he forgot to look

Better staple it together and call it bad weather
Staple it together and call it bad weather X3

Chords like chorus:

If the weather is better
We should get together
Spend a little time and we can do whatever
And if we get together we'll be twice as clever
So, staple it together and call it bad weather, mm hmmm

little lick / end:

e|------------------------------------------------------------|
B|-----------5------------------------------------------------|
G|--------------7-----------7--5------5---7b9p5---------------|
D|---7---7-7-------5--5--5---------7-------------7---5---7----|
A|------------------------------------------------------------|
E|------------------------------------------------------------|

| / slide up
| \ slide down
| h hammer-on
| p pull-off
| s slide
| b bend
| ~ vibrato
| + harmonic
| x Mute note