Autoscroll Speed
Start AutoscrollingStop Autoscrolling Decrease Autoscrolling speed1Increase Autoscrolling speed

Staple It Together by Jack Johnson

Tabbed by Pat McInnis (pat@patmcinnis.com)

Intro

The rhythm can be tricky, but just listen. It's not that bad.

Emphasize the high notes.

E--5-----

B--5--7--

G--5--7--

D--7--7--

A--7--5--

E--5-----

Second Guitar Part:

E-----------------

B-----------------

G-----------------

D-----------------

A-----------3--5--

E--5--5-5-5-------

Chorus:

Feel free to make up your own fills after the C. I just put that one as an example.

E--5-----3-----------------

B--5--7--3--5--------------

G--5--7--3--5--------------

D--7--7--5--5-----5h7p5----

A--7--5--5--3--/7-------7--

E--5-----3-----------------

The second guitar during the chorus is doing this:

E--------------------------------

B--------------------------------

G--------------------------------

D--------------------------------

A-----------7--5------------5--3--

E--5--5-5-5-------3-3-3-3-3-------

Breakdown:

E--5--5-----------------5--5---------(5-5)---5--5-------------(5-5)-5--5--7/8-7--5--

B--5--5-----------------5--5------5---5-5----5--5--7-7--7-7-7--5-5--5--5--7/8-7--5--

G--5--5--7--5h7-7b-5----5--5------5---5-5----5--5--7-7--7-7-7--5-5--5--5--7/8-7--5--

D--7--7--7-----------7--7--7------5h7-----7--7--7-------------------7--7------------

A--7--7-----------------7--7--5h7------------7--7-------------------7--7------------

E--5--5-----------------5--5-----------------5--5-------------------5--5------------

After that, just go into the Am and D chords. Just add some fills.

Outro Riff

It basically doubles the normal second guitar riff at a higher octave, with some added fills.

E-------------------------------------------------------------------------------------

B--------------------------------------------------------------------7b-7p5-(7p5)-----

G-----------5--7-----------5--7--7b-7p5-----------5--7------------5--7b-7p5--7p5------

D--7--7-7-7-------7--7-7-7---------------7--7-7-7-------7-7-7-7-7----------------7-7--

A-------------------------------------------------------------------------------------

E-------------------------------------------------------------------------------------

(continued)

E-------------------------------------------------------------------------------------------

B-------------------------------8--8----------------------------------------------7b-7p5----

G------9--7------------7--5--/9------9-9---------9--7--7b-5-----------------7--5--7b-7p5----

D--7-7-------5-5-5-5-5--------------------7--7-7------------7-(7)-5-5-5-5-5--------------7--

A-------------------------------------------------------------------------------------------

E-------------------------------------------------------------------------------------------