Autoscroll Speed
Start AutoscrollingStop Autoscrolling Decrease Autoscrolling speed1Increase Autoscrolling speed

Bob Marley/Sublime Medley by Jack Johnson

Tabbed by: Matt Jones

        G       B         F         C

e ------3-------1---------1---------3------------
B ------3-------2---------1---------5------------
G ------4-------2---------2---------5------------
D ------5-------2---------3---------5------------
A ------5-------1---------3---------3------------
E ------3-------x---------1---------x------------

Lyrics

One good thing about music
is when it hits, you feel no pain
One good thing about music
is when it hits, you feel no pain
so hit me with music
woah hit me with music now
hit me with music
brutalize me with mu---oooooh

(transfer to garden grove, which is just the F and G chords for the rest of the song)

we took this trip to garden grove
it smelled like lou-dog inside the van
this ain't no funky reggae party
5 dollars at the door
it gets to real sometimes
who wrote my rhymes

got my microwave
i got my VCR
I've got the duece duece in the trunk of my car

(slide fills)

e ---1/3/1---------------------------------------3---3-----3/6-------
B ---1/3/1-------------------------------------3---3---3---3/6-------
G --------------------------------------------------------------
D --------------------------------------------------------------
A --------------------------------------------------------------
E --------------------------------------------------------------

Ring the Alarm cause now the sound is dying
woooah
ring the alarm, and now the sound is suffering
ring the alarm cause now the sound is dying
ring the alarm, and now the sound is..
and now the sound is
and now the sound is...
(fading away singing that)

what did you what did you what did you what did you say

what did you what did you what did you what did you say

what did you what did you what did you what did you say

what did you what did you what did you what did you say