Autoscroll Speed
Start AutoscrollingStop Autoscrolling Decrease Autoscrolling speed1Increase Autoscrolling speed

Cissy Strut by The Meters (covered by Jack Johnson)

Tabbed by Greg Clemmer

Standard Tuning

------------------------------------6--6---5--5--
----------------------------------- 6--6---6--6--
---5p3p0-------------------------7--7---5--5--
-------------1------------------------------------
----------------3---------------------------------
---------------------6h8—6h8-----------------  x4

This part is very funky, there is a lot of muting and stuff that 

can’t be described on paper, but these are the main notes he plays. 

Other than that, you can make up any funky style you want to add, 

it all sounds good…

------------------------------------------------------     --------
------------------------------------------------------     --------
------------------------------------------------------     --------
---10—10p8-------8---------10—10p8--------------------     --------
-----------------10--------------------------10-------     --5-7-8-
--------------------------------------------------8—-- x4  --------

------------------------------------6--6---5--5---
----------------------------------- 6--6---6--6---
---5p3p0-------------------------7--7---5--5------
-------------1------------------------------------
----------------3---------------------------------
---------------------6h8—6h8----------------------  x4