Autoscroll Speed
Start AutoscrollingStop Autoscrolling Decrease Autoscrolling speed1Increase Autoscrolling speed

Providence by Jack Johnson

Tabbed by Matt Sevrens

The Song is based around these two riffs, repeat and vary.
The slide from G# to A (from the 6th to 7th fret) sounds odd
but its hard to explain, so that works for the sake of the tab.

e|-----------------------------------------------------------------
B|------------------------5~~~------5------------------------------
G|---------------------6---------------6---------------------------
D|--------------4--7----------------------7--4---7-7--x-6/7--------
A|------4-7----------------------------------------------------5---
E|-5~~-------------------------------------------------------------
(repeat riff and vary)

e|--------x---5/7\5/7\5-----x---------------------------------------
B|--------x---5/7\5/7\5-----x---------------------------------------
g|--------x-----------------x---------------------------------------
D|--------x-----------------x---------------------------------------
A|--------x-----------------x----5----------------------------------
E|----5---x-----------------x-------55---5-5------------------------

The song is played in the second mode of the f# minor pentatonic
scale meaning its in A, after all this, the song works into posters.
The repeated sliding fades out as you play it.