Autoscroll Speed
Start AutoscrollingStop Autoscrolling Decrease Autoscrolling speed1Increase Autoscrolling speed

Rudolph the Red Nosed Reindeer (2) by Jack Johnson

Album : Various Artists - Maybe This Christmas ('2002)

Note: Try to mute the high Eb on strumming

eb:|------5------6-8p6---6-6------------------|
B:|---------5-7-------7-7-5-----5--3/5\3--2--|
G:|----6--------------------5/6----4/6\4--2--|
D:|---7--------------------------------------|
A:|--7---------------------------------------|
E:|-5----------------------------------------|
^
(2nd guitar joins at A)
A                                                E
Rudolph The Red-Nosed Reindeer, had a very shiny nose
E                                              A
And if you ever saw him, you might even say it glows
A                                                         E
And all of the other reindeer, used to laugh and call him names
E                                                A
They never let poor Rudolph join in any reindeer games
D                  A              E                A
And then one foggy Christmas Eve, Santa he came to say,
D                  A            E (let ring)
"Rudolph with your nose so red, won't you guide my sleigh tonight?"

eb:|----6-10---8------------------------------|
B: |---5-----9---9---7p5---5-5----------------|
G: |--6------------9-----6-6-4-4-6-4----------|
D: |-7-------------------------------7--------|
A: |------------------------------------------|
E: |------------------------------------------|

A                                                         E
Then how the reindeer loved him, as they shouted out with glee,
E                                                  A
"Rudolph the Red-Nosed Reindeer, you'll go down in history"
D                     A                      E                        A
But Rudolph he didn't go for that, he said, "I see through your silly games.
D                   A                      E (let ring)
How can you look me in the face, when only yesterday you called me names?"
D                                   A
And all of the other reindeer, man, they sure did feel ashamed.
E                               D (let ring)
"Rudolph, you know we're sorry, we're truly gonna try to change."

(End on "...change." with A, picking the low E)

Chord Shapes:
A: 57765x
E: x7999x
D: x5777x