Autoscroll Speed
Start AutoscrollingStop Autoscrolling Decrease Autoscrolling speed1Increase Autoscrolling speed

Soon Forget by Pearl Jam performed by Jack Johnson

(Thanks to Dave Bennetts for this, written for Ukulele, transcribed for Guitar)

#----------------------------------PLEASE NOTE--------------------------------#
#This file is the author's own work and represents their interpretation of the#
#song. You may only use this file for private study, scholarship, or research.#
#-----------------------------------------------------------------------------#
#-- File created with Instab - http://www.pconline.com/~smcarey/instab.html --#
#-----------------------------------------------------------------------------#

Author/Artist: Pearl Jam/ performed by Jack Johnson
Title: Soon Forget
Transcribed by: David Bennetts

Ukulele arranged for guitar
To match the recording, tune down about a quarter step

-|----------------------------------------------------------|-----------------
-|-7---7---7---7---7---7---7----------7---7------7---7-7-7--|-----------------
-|---8---8---8---8---8---8---8-8-8--8-8---8-8--8-8---8-8-8--|-----------------
-|---9---9---9---9---9---9---9-9-9--9-------9--9-----9-9-9--|-----------------
-|----------------------------------------------------------|-----------------
-|----------------------------------------------------------|-----------------
Sorry is the fool who trades his

-|----------------------------------------------------------------------------
-|----9--9------9---9-9-9-----11--11--------11---11-11-11-11------------------
-|----9--9------9---9-9-9-----11--11--------11---11-11-11-11------------------
-|-9--9--9-9--9-------9----14-14-----14--14------14-14------------------------
-|----------------------------------------------------------------------------
-|----------------------------------------------------------------------------
Soul for a corvette     thinks he'll get the girl he'll only

-|-------------------------------------------------------------|--------------
-|----11--11-11-11-----11--11-11-11------9---9--9-----9--9-x-x-|--------------
-|----12--12-12-12-----12--12-12-12---8--8---8--8-----8--8-x-x-|--------------
-|-13--------13-----13--------13------------------10-10--------|--------------
-|-------------------------------------------------------------|--------------
-|-------------------------------------------------------------|--------------
Get the mechanic        what's   missing            he's

-|--------------------------------------------------------------------------|-
-|-----11---x-x-x----9----9-----12----12----12----12-11-x-x-x-x-x--x-x--x-x-|-
-|--8---8---x-x-x--8-8--8-8-----12----12-12-12-12-12-11-x-x-x-x-x--x-x--x-x-|-
-|-10-------x-x-x-10---10----14----14----14----14----11-x-x-x-x-x--x-x--x-x-|-
-|--------------------------------------------------------------------------|-
-|--------------------------------------------------------------------------|-
Living                  a  day  he'll  soon  forget                that's

-|--------------------------------------------------------------|-------------
-|-9--9---9-9-9--9--9---9-9-11-11--11--11-11-11--11--11--11-x-x-|-------------
-|-9--9---9-9-9--9--9---9-9-11-11--11--11-11-11--11--11--11-x-x-|-------------
-|-9--9---9-9-9--9--9---9-9-14-14--14--14-14-14--14--14--14-x-x-|-------------
-|--------------------------------------------------------------|-------------
-|--------------------------------------------------------------|-------------
One more time around      the sun is   going     down    the

-|-------------------------------------------------------------|--------------
-|-11--11--11-x-x--11--11--11-x-11-11-----9--9-9-9-----9-----9-|--------------
-|-12--12--12-x-x--12--12--12-x-12-12-----8--8-8-8-----8-----8-|--------------
-|-13--13--13-x-x--13--13--13-x-13-13--10-----------10----10---|--------------
-|-------------------------------------------------------------|--------------
-|-------------------------------------------------------------|--------------
Moon is out but he's drunk and shouting putting people down he's

-|----------------------------------------------|-----------------------------
-|----9---9---9---9----11-------11----11----11--|-----------------------------
-|----9---9---9---9----11----11-11----11----11--|-----------------------------
-|--9---9---9---9---14----14-14----14----14-----|-----------------------------
-|----------------------------------------------|-----------------------------
-|----------------------------------------------|-----------------------------
Pissing       he's living a day he'll soon for-

-|---------------7----------7-----------------|-------------------------------
-|-----------7---7------7---7------7-7---7----|-------------------------------
-|--8-8--8-8-9-8-8--8-8-9-8-8--8-8-9-8-8---8--|-------------------------------
-|--9-9--9-9-9-9----9-9-9-9----9-9-9-9-9---9--|-------------------------------
-|--------------------------------------------|-------------------------------
-|--------------------------------------------|-------------------------------
-get

-|---------------------------------------------|------------------------------
-|----11----11----11----11----9-----9--9---9---|------------------------------
-|----11----11----11----11----9---9-9--9---9---|------------------------------
-|-14----14----14----14-----9---9-9------9---9-|------------------------------
-|---------------------------------------------|------------------------------
-|---------------------------------------------|------------------------------
Counts his money every morning

-|---------------------------------------------|------------------------------
-|----11----11----11----11----9-----9--9-9-9-9-|------------------------------
-|----11----11----11----11----9---9-9--9-9-9-9-|------------------------------
-|-14----14----14----14-----9---9-9------9-9-9-|------------------------------
-|---------------------------------------------|------------------------------
-|---------------------------------------------|------------------------------
The only thing that keeps him horny

-|---------------------------------------------|------------------------------
-|----11-------11----11----11--9---9---9-9-9-9-|------------------------------
-|----11----11-11----11----11--9---9-9-9-9-9-9-|------------------------------
-|-14----14-14----14----14-------9---9-9-9-9-9-|------------------------------
-|---------------------------------------------|------------------------------
-|---------------------------------------------|------------------------------
Locked in a giant house that's alarming  the

-|---------------------------------------------------|------------------------
-|----12----12----12----12--11--x-x-x-x-x--x-x--x-x--|------------------------
-|----12----12----12----12--11--x-x-x-x-x--x-x--x-x--|------------------------
-|-14----14----14----14-----11--x-x-x-x-x--x-x--x-x--|------------------------
-|---------------------------------------------------|------------------------
-|---------------------------------------------------|------------------------
Townsfolk they all laugh

-|--------------------------------------------|-------------------------------
-|---7--7-7----7--7-7-7----9--9-9----9--9-9-9-|-------------------------------
-|-8-8--8-8--8-8--8-8-8----9--9-9----9--9-9-9-|-------------------------------
-|-9---------9-----------9---------9----------|-------------------------------
-|--------------------------------------------|-------------------------------
-|--------------------------------------------|-------------------------------
Sorry is the fool who trades his love for hi-rise rent

-|--------------------------------------------------------------|-------------
-|----11--11-x-x-11----11--11-x-x-----11--11-11----11--11-11-11-|-------------
-|----11--11-x-x-11----11--11-x-x-----12--12-12----12--12-12-12-|-------------
-|-14---------------14-------------13-----------13--------------|-------------
-|--------------------------------------------------------------|-------------
-|--------------------------------------------------------------|-------------
Seems the more you make equals the loneliness you get and it's

-|--------------------------------------------------|-------------------------
-|----9------------9------------9------------9----9-|-------------------------
-|--8-8---8---8--8-8---8---8--8-8---8---8--8-8--8-8-|-------------------------
-|-10----10--10-10----10--10-10----10--10-10---10---|-------------------------
-|--------------------------------------------------|-------------------------
-|--------------------------------------------------|-------------------------
Fitting           he's barely living   a

-|--------------------------------------------------|-------------------------
-|----12----12----12----12--11--x-x-x-x-x--x-x--x-x-|-------------------------
-|----12----12----12----12--11--x-x-x-x-x--x-x--x-x-|-------------------------
-|-14----14----14----14-----11--x-x-x-x-x--x-x--x-x-|-------------------------
-|--------------------------------------------------|-------------------------
-|--------------------------------------------------|-------------------------
Day   he'll  soon  forget                   that's

-|-------------------------------------------------------|--------------------
-|---9--9-9----9--9-9-9-----11--11-11-11----11--11-11-11-|--------------------
-|---9--9-9----9--9-9-9-----11--11-11-11----11--11-11-11-|--------------------
-|-9---------9-----------14--------------14--------------|--------------------
-|-------------------------------------------------------|--------------------
-|-------------------------------------------------------|--------------------
One more time around and there is not a sound he's

-|-----------------------------------------------------------|----------------
-|----11--11-11-----11--11-11-11-11-----9-------9----9----9--|----------------
-|----12--12-12-----12--12-12-12-12-----8-----8-8----8----8--|----------------
-|-13------------13------------------10---10-10---10---10----|----------------
-|-----------------------------------------------------------|----------------
-|-----------------------------------------------------------|----------------
Lying dead clutching Benjamins never put the money down he's

-|----------------------------------------------------------|-----------------
-|-----9-----9-----9-----9--11---------11-------------------|-----------------
-|--9--9--9--9--9--9--9--9--11---------11-------------------|-----------------
-|--9-----9-----9-----9-----14---------14-------------------|-----------------
-|----------------------------------------------------------|-----------------
-|----------------------------------------------------------|-----------------
Stiffening    we're all  whistling a man we'll soon forget

-|-7-------------------------7--7--------7-----------||-----------------------
-|-7----------------7------7-7--7------7-7--7--7-----||-----------------------
-|-8--8-8-8-8--9-8--8--8-8-9-8--8--8-8-9-8--9--8-----||-----------------------
-|-9--9-9-9-9--9-9--9--9-9-9-9-----9-9-9----9--9-----||-----------------------
-|---------------------------------------------------||-----------------------
-|---------------------------------------------------||-----------------------