Autoscroll Speed
Start AutoscrollingStop Autoscrolling Decrease Autoscrolling speed1Increase Autoscrolling speed

The Cove  by Jack Johnson

Tabbed by Aaron Oman

Tuning is GBDGBe

In the key of C:

e-3-----5---3----1------1-0-|-3-----5---3----(3)/5------5-0-
b---3---------3----0--------|---3---------3--------0--------
g-----4-5---4--------0------|-----4-5---4------------5------
d---------------------------|-------------------------------
b----------------3----------|-5-----5---5--------3----------
g-0-------------------------|-------------------------------

e-5-5/7-5---7h8-10--------10p0-|----0--1h3-0-----------7-----
b--------------------0---------|--------------3--0-----------
g-------5---7----------10------|-------------------5/7---7---
d------------------------------|-----------------------------
b------------------------------|-5------------3--------------
g-0--------------7-------------|-----------------------------

e---0-----0---------------0---
b-8---6-5---3-(1)p0---0-----0-
g-----------------------0-----
d-----------------------------
b-----------------3-----------
g-0---------------------------

The following part trails off to silence, but every note here is played

e------------------------0-----0-----0-----0-----
b--------7--5------0-------0-3---0-3---0-3---0-3-
g----7h9-------7---------------------------------
d--------------------0hx-------------------------
b------------------------------------------------
g-0------------7---------------------------------

In the key of D:

e---5---3---2---------------------|---5---3---2---------------------
b---------------5---3---5---7---3-|---------------5---3---5---7---8-
g---------------------------------|---------------------------------
d---------------------------------|---------------------------------
b-----3-------3-------3-------3---|-----3-------3-------3-----------
g-0-------0-------0-------0-------|-0-------0-------0-------0---7---

e---5---3---2---------------------|---5---3---2-------------------
b---------------5---3---5---7---3-|---------------5---3---5---7---
g---------------------------------|-------------------------------
d---------------------------------|-------------------------------
b-----3-------3-------3-------3---|-----3-------3-------3---------
g-0-------0-------0-------0-------|-0-------0-------0-------0---7-

e-------------------------------------------7---
b-(7)/12---12---12---12---12---12---12---12---7-
g-----------------------------------------------
d-----------------------------------------------
b-----------------------------------------------
g--------7----0----7----0----7----0----7--------

At this point two guitars start playing together and it gets much more
difficult to make out.  I plan on fixing the remainder up at some point in
the future, but for now this is it.

Guitar 1:

e-----5-----5-----5-----5-|-----3-----3-----3-----3-|-----5-----5-----5-----5-
b-------------------------|-------------------------|-------------------------
g-------------------------|-------------------------|-------------------------
d-------------------------|-------------------------|-------------------------
b---5-----5-----5-----5---|---3-----3-----3-----3---|---5-----5-----5-----5---
g-7-----7-----7-----7-----|-0-----0-----0-----0-----|-7-----7-----7-----7-----

Guitar 2:

e-5/7\5/7\5/7-
b-------------
g-------------
d-------------
b-------------
g-------------

I don't have the rest, but this bassline repeats throughout the remainder
of the song:

e---------------------------------|
b---------------------------------|
g---------------------------------|
d---------------------------------|
b---3---3---3---3---3---3---3---3-|
g-0---0---0---0---0---0---0---0---|

Tabbed by BradC (jackjohnsonmusic.com/forums)



|-3----5--3----1-----1p0-0---2--0----2/5----5--7-----7--8--10---10p0-7----7h8p7-5------5----7---
|---3---------3---0----------0---------3---------------0---------7----0----------0-----------------------
|----4-5--4---------0---------0--------------4-5--5----0-7--9---7--10---------0--------------0-4/5-5/7---
|-----------------0----------2----2--2-------------------------------------------------------------------
|-------------------------------------------------7---------------------------------------------------5--
|-0---------------------------------------------------------------------------------0--------------------

|-3--2--0-------3----------2-2/5--5--5--
|--3--3---3-3----3-1-3/5-5---0--0--0-(Fade Out)
|-----------------0------------------0--0--0
|----------------0---0------------------------
|---------------2-----3-----------------------
|-0--0--0------------------------------------

|--5--3--2--0-----0--2----||-3/7---7---||-5---5--||-3---3---|
|-----------------3--------3-||-------------||----------||---------|
|.----------------------------.||.-----------.||.---------.||.-------.|
|.---0--0--0--0--0--0--0.||.-----0---0.||.--0---0.||.--0---0.|
|------------------------------||-------------||----------||---------|
|-0--0--0--0--0--0--0--0-||---0---0---||-0---0--||-0---0---|