Autoscroll Speed
Start AutoscrollingStop Autoscrolling Decrease Autoscrolling speed1Increase Autoscrolling speed

Thicker Than Water by Todd Hannigan

Tabbed by Fenster1977 (jackjohnsonmusic.com forums)

This tab has the approval of Todd Hannigan himself, read about it here

Intro/Verse-type thing:

----E-------------E/F#-----E
e--------------------------------
B--------------------------------
G---1--------1------1------1-----
D---2--------2------2------2-----
A---2--------2------0------2-----
E---0------0-----0h2-------0-----

----Eadd4----------E-----E
e--------------------------------
B--------------------------------
G-----1------------1-----1-------
D-----2------------2-----2-------
A--0--0------0h2-2-2-----2-------
E---------------------0--0-------

Pre-Chorus:

-----B---------------------E
e--------------------------------
B--------------------------------
G--------------------------1-----
D----1---------------------2-----
A----2---------------------2-----
E--2-2-------------------0-0----- X2

Chorus-type thing:

---C#m----G#m------A-----F#m
e---4------4-------5------2------
B---5------4-------5------2------
G---6------4-------6------2------
D---6------6-------7------4------
A---4------6-------7------4------
E----------4-------5------2------

--------------E-----E/F#-----E
e--------------------------------
B--------------------------------
G-------------1-------1------1---
D-------------2-------2------2---
A-------2-4---2-------0------2---
E---0h2-------0---0h2-----0--0---