Autoscroll Speed
Start AutoscrollingStop Autoscrolling Decrease Autoscrolling speed1Increase Autoscrolling speed

We're Gonna be Friends by The White Stripes (covered by Jack Johnson)

Tabbed by Jordan Elek

Intro: (D)
e|--------2--|
B|----3------|
G|------2----| x8
D|--0--------|
A|-----------|
E|-----------|

Verses: (D G D)
e|--------2-------2-------2-------2-------3-------0-------2-------2--|
B|----3-------3-------3-------3-------0-------0-------3-------3------|
G|------2-------2-------2-------2-------0-------0-------2-------2----|
D|--0-------0-------0-------0-----------------------0-------0--------|
A|-------------------------------------------------------------------|
E|----------------------------------3-------3------------------------|

Chorus: (A G D)
e|--------0-------0-------2-------2--|
B|----2-------0-------3-------3------|
G|------2-------0-------2-------2----|x2
D|------------------0-------0--------|
A|--0--------------------------------|
E|----------3------------------------|

Bridge: (G D G D E G A)
e|--------3-------0-------2-------2-------3-------0-------2-------2--|
B|----0-------0-------3-------3-------0-------0-------3-------3------|
G|------0-------0-------2-------2-------0-------0-------2-------2----|
D|------------------0-------0-----------------------0-------0--------|
A|-------------------------------------------------------------------|
E|--3-------3-----------------------3-------3------------------------|

e|--------0-------0-------0-------0--------3-------0------------------|
B|----0-------0-------0-------0--------0-------0-------2---2---2---2--|
G|------1-------1-------1-------1--------0-------0-------2-------2----|
D|--------------------------------------------------------------------|
A|---------------------------------------------------0-------0--------|
E|--0-------0-------0-------0--------3-------3------------------------|

End on a strum of D