Autoscroll Speed
Start AutoscrollingStop Autoscrolling Decrease Autoscrolling speed1Increase Autoscrolling speed

Broken by Jack Johnson

 

Tabbed by Mattes B.

Intro:
D (4x)

------------------------------------|
-----5---------7-5------------------|
-----5-------5-----7-5h7p5----------|
---------5h7-----------------5--5---|
-5/7---7-------------------7------7-|
------------------------------------|

-----------------------------------|
-----5---------8-5-----------------|
-----5-------5-----7-5h7p5---5-5---|
---------5h7---------------7-----7-|
-5/7---7---------------------------|
-----------------------------------|

 

D
With everything ahead of us We left everything behind

But nothing that we needed At least not at this time
              G
And now the feeling that I'm feeling well
                                     D
it's feeling like my life is finally mine
      G                                          D
With nothing to go back to we just continue to drive



CHORUS (2x)

    Em
Without you I was broken
         G                                   D
But I'd rather be broke down with you by my side


Verse 2:
D
I didn't know what I was looking forSo I didn't know what I'd find
I didn't know what I was missing I guess you've been just a little too kind
     G                                                        D
And if I find just what I need I'll put a little peace in my mind
 G                                                            D
Maybe you've been looking too Or maybe you don't even need to try

Chorus 2x:

 Em
Without you I was broken
         G                                  D
But I'd rather be broke down with you by my side


INTERLUDE:
Em - G - D - D
Em - G - D - D
....


D
With everything in the past Fading faster and faster until it was gone
Found out I was losing so much more than I knew all along
          G                                                          D
Because everything I've been working for Was only worth nickels and dimes
    G 
But if I had a minute for every hour that I've wasted
                D
I'd be rich in time, I'd be doing fine

Chorus...4x