Autoscroll Speed
Start AutoscrollingStop Autoscrolling Decrease Autoscrolling speed1Increase Autoscrolling speed

Broken by Jack Johnson

 

Tabbed by Steve Scherrer

 

Chords:
-2---------3------0-------------------
-3---------3------0-------------------
-2---------0------0-------------------
-4---------0------2-------------------
-----------2------2-----------------
-----------3------0-----------------
 D         G               Em
 
Intro
--------------------------------------------------------------------------------------------------
-------------------------------------------------------------------10-7-------------------7-----
-------7--------7--9-7--------------------------------7------7---------9—7h9p7------7----
-------7---7/9-----------9-7h9p7-----7-------------7-7/9--------------------------9------9-
-7/9---------------------------------9-----9-----7/9-------------------------------------------
--------------------------------------------------------------------------------------------------
 
--------------------------------------------------------------------------------------------------
-------------------------------------------------------------------------------------------------
-------7--------7--9-7--------------------------------7------7---9--7-------7-9------7-----
-------7---7/9-----------9-7h9p7-----7-------------7-7/9-------------9----------9------9-
-7/9---------------------------------9-----9-----7/9------------------------------------------
-------------------------------------------------------------------------------------------------
D
 
--------------------------------------------------------------------------------------
--------------------------------------------------------------------------------------
------7--------7-9-7-------------------------------7-------7--9-7---7-------------
------7—7/9---------9—7h9p7-----7-----------7—7/9---------9---9-7--------
-7/9--------------------------------9-----9---7/9-----------------------------------
---------------------------------------------------------------------------------------
With everything ahead of us we left everything behind, but nothing that we needed at least not at this time and now
 
------------------------------------------------------------------------------
--7----------------7---------------------------------------------10--------
--7/9-7----7------7/9-7---------------------7------7-9-9/11------11----
----------9----9----------9—7h9p7--------7-7/9-------------------------
------------------------------------------7/9---------------------------------
------------------------------------------------------------------------------
G                                                                                                     D
The feeling that I’m feeling well, its feelin like my life is finally mine
 
------------------------------------------------------------------------
------------------------------------------------------------------------
-9-7----7---9p7----9-7---7---7---/10------------------------------
------9------------9------9---9---------------------------------------
------------------------------------------------------------------------
------------------------------------------------------------------------
G                                                                            D
With nothing to go back to, we just continued to drive 
 
----------------------------------------------------------------
----------------------------------------------------------------
-7\4 -4\2-2/4-4-4/7-7-7/9-9\7------------------------------
----------------------------------------------------------------
----------------------------------------------------------------
----------------------------------------------------------------
Em                                                 G                                                           D
Without You I was broken but I’d rather be broke down with you by my side
 
 
-------------------------------------------------------------------
--------------------------------------12-10-----10-------------
-7\4 -4\2-2/4-4-4/7-7-7/9-9/11--11-----11-----11-9-11-9-
------------------------------------------------------------------
------------------------------------------------------------------
------------------------------------------------------------------
Em                                                        G                                                          D
Said without you I was broken but I’d rather be broke down with you by my side
 
--------------------------------------------------------------------------------------------------
--------------------------------------------------------------------------------------------------
-------7--------7--9-7--------------------------------7------7--9--7-----9--7----7----------
-------7---7/9-----------9-7h9p7-----7-------------7-7/9------------9--------9----9------
-7/9---------------------------------9-----9-----7/9------------------------------------------
-------------------------------------------------------------------------------------------------
D
I didn’t know what I was looking for so I didn’t know what I’d find, I didn’t know what I was missing I guess you’d been a little too kind
 
----------------------------------------------------------------
----------------------10--------------------------------------
-7--------7-7---/11-----11--------7--9-7------7-----------
-7---7/9-----------------------7/9-----------7---------------
---------------------------------------------------------------
----------------------------------------------------------------
G                                                                                 D
and if I find just what I need, put a little piece in my mind
 
 
 
---------------------------------------------------------------
---------------------------------------------------------------
----7-9-7---9-7----7h9p7 ---7---------7--------7-9------
-9---------9------9----------9-----------7—7/9------------
--------------------------------------7/9---------------------
---------------------------------------------------------------
G                                                                                               D
 maybe you been looking too, maybe you don’t even have to try
 
 
----------------------------------------------------------------
----------------------------------------------15----------------
-7\4 -4\2-2/4-4-4/7-7-7/9--11--14--16---------------------
-----------------------------------------------------------------
----------------------------------------------------------------
-----------------------------------------------------------------
Em                                                  G                                                          D
Without you I was broken and I’d rather be broke down with you by my side
 
----------------------------------------------------------------
----------------------------------------------------------------
-7\4 -4\2-2/4-4-4/7-7-7/9-9\7—7/9h11--------9---------
-----------------------------------------------7h9------------
----------------------------------------------------------------
----------------------------------------------------------------
Em                                                       G                                                           D
said without you I was broken but I’d rather be broke down with you by my side
 
 
Solo:
--------------------------------------------------------------------------------------------------
--------------------------------------------------------------------------------------------------
-9/11-11-9-7-------7--------------------7-7-12-11-7-11-11h12p11--12-11-9/11-7-----
-----------------9-7----9-7 ----7—7h9-------------------------------------------------------
-------------------------------9------------------------------------------------------------------
---------------------------------------------------------------------------------------------------
D                                                                                         G                           D
 
------------------------------------------------------------------------------------------
-----------------------------------------------------------------------------------------
--------------9-7----9--7--------------------------------------------7------------------
-9-7---------------9-----------------------------------------------7----7h9p7-7-------
------9-7----------------------------------------------7-5—7/9-------------------9-9-
------------------------------7-5-2-0--2-3-3-3/5-7------------------------------------
G                                     Em         G                      D                                Em
 
-----------------------------------------------------------------
-----------------------------------------------------------------
-----------------------------------------------------------------
-----------------------------------------------------------------
-----------------------7-5--------------------------------------
-0-----2-3-3-3/5-7--------------------------------------------
Em    G                     D 
 
-------------------------------------------------------------------------------------------------
-------------------------------------------------------------------------------------------------
-------7--------7--9-7--------------------------------7------7---9--7-------7-9------7-----
-------7---7/9-----------9-7h9p7-----7-------------7-7/9-------------9----------9------9-
-7/9---------------------------------9-----9-----7/9------------------------------------------
-------------------------------------------------------------------------------------------------
D   
With everything in the past fading faster and faster till it was gone, Found out I’d beeI was losing more than I knew all along
 
-----------------------------------------------------------------
-10-7----7----- -------10-------------------------------------
--------9----7—9/11------9/11\9------7-9-7----7h9p7----
--------------------------------------7/9---------9-------------
-----------------------------------------------------------------
-----------------------------------------------------------------
G                                                                                               D
But everything I’d been working for, only worth nickels and dimes
 
-----------------------------------------------------------------
------------------------------10-10/12-------------------------
-7-----7-7-7-7h9/11p9\7-------------------------------------
-7--9-----------------------------------------------------------
-----------------------------------------------------------------
-----------------------------------------------------------------
G                                                                                            D
But if I had a minute for every hour that I’ve wasted I’d be rich in time, I’d be doing fine
 
----------------------------------------------------------------
-------------------------------------12------------------------
-7\4 -4\2-2/4-4-4/7-7-7/9--11-------11-------------------
---------------------------------------------------------------
---------------------------------------------------------------
---------------------------------------------------------------
Em                                            G                                                                      D
Cuz without you I was broken but I’d rather be broke down with you by my side
 
----------------------------------------------------------------
-----------------------------------------------------------------
-7\4 -4\2-2/4-4-4/7-7-7/9------7-9-7---7h9p7------------
-------------------------------7/9--------9----------9--------
----------------------------------------------------------------
-----------------------------------------------------------------
Em                                                         G                                                          D
Said without you I was broken but I’d rather be broke down with you by my side
 
----------------------------------------------------------------
----------------------------------------------------------------
-7\4 -4\2-2/4-4-4/7-7-7/9------7-9-7----9--7------7------
-------------------------------7/9--------9----------9----9---
----------------------------------------------------------------
-----------------------------------------------------------------
Em                                                         G                                                          D
Said without you I was broken but I’d rather be broke down with you by my side
 
----------------------------------------------------------------
-----------------------------------------------------------------
-7\4 -4\2-2/4-4-4/7-7-7/9-9\7-------------------------------
-----------------------------------------------------------------
----------------------------------------------------------------
-----------------------------------------------------------------
Em                                                         G                                                          D
Said without you I was broken but I’d rather be broke down with you by my side