Autoscroll Speed
Start AutoscrollingStop Autoscrolling Decrease Autoscrolling speed1Increase Autoscrolling speed

Supposed To Be by Jack Johnson

Tabbed by Steve Scherrer 

 

Chords on the piano are E A and G flat

riff 1
-------------------------------
-------------------------------
-------------------------------
-----------2-4-6-4------------
---2-2-4---------------------
-0----------------------------

riff 2
--------------------------------
--------------------------------
--------------------------------
-----6-4-2-----2-4-2---------
-------------4-------------------
--------------------------------

bridge 1st and 3rd time

------------------------------
------------------------------
-4---------------------------
---7-6-2-4-6-2-----------
------------------2----------
------------------------------

bridge second time

---------------------------
---------------------------
-4--------------4---------
---7-6-2-4-6-------6------
---------------------------
---------------------------