Autoscroll Speed
Start AutoscrollingStop Autoscrolling Decrease Autoscrolling speed1Increase Autoscrolling speed

Upside Down by Jack Johnson

Tabbed by David Alvey 

 

Intro/Verse/Outro:

   E                 F#m
---0------------------2----------|
---0------------------2----------|
---1------------------2----------|
---2------------------4----------|
---2------------------4----------|
---0------------------2----------|

Chorus:

    E        F#m         A          B
----0---------2----------5----------7----------------------|
----0---------2----------5----------7----------------------|
----1---------2----------6----------8----------------------|
----2---------4----------7----------9----------------------|
----2---------4----------7----------9----------------------|
----0---------2----------5----------7----------------------|

Verse

Chorus

Then there's a little bridge after the second time through the chorus.

Bridge:

      Abm        F#m                  B
-------4----------2-------------------7------------|
-------4----------2-------------------7------------|
-------4----------2-------X2-then-----8------------|
-------6----------4-------------------9------------|
-------6----------4-------------------9------------|
-------4----------2-------------------7------------|

Then back to the Chorus

Outro