Autoscroll Speed
Start AutoscrollingStop Autoscrolling Decrease Autoscrolling speed1Increase Autoscrolling speed

Upside Down by Jack Johnson

Tabbed by Jonathan Bietz 

 

Intro on album:
e|----------------------------------------------------
B|----------------------------------------------------
G|------------4------------4-4h6----4-----------------
D|------4s6---------4s6-------------4---4h6--4h6--4---
A|----------------------------------4-----------------
E|--0------------0------------------------------------

Intro on AOL Sessions:
e|-----------------------------------9----
B|-----------------------------------10---
G|------------4------------4-4h6-----9----
D|------4s6---------4s6--------------11---
A|-----------------------------------9----
E|--0------------0-------------------X----

Verse:
e|---0------2-----
B|---0------2-----
G|---1------2-----
D|---2------4-----
A|---2------4-----
E|---0------2-----

Chorus:
e|---0------2------5-----2----
B|---0------2------5-----4----
G|---1------2------6-----4----
D|---2------4------7-----4----
A|---2------4------7-----2----
E|---0------2------5----------

"There's no time to waste...":
e|---4------2-----
B|---4------2-----
G|---4------2-----
D|---6------4-----
A|---6------4-----
E|---4------2-----


 

Upside Down by Jack Johnson

Tabbed by: Cory Farrow 
 

Intro:
E F#
e|--0------2-------
B|--0------2-------
G|--1------2-------
D|--2------4-------
A|--2------4-------
E|--0------2-------

Fill: (first one is how jack plays it)
E B E
e|--0--------------------2---------------0------
B|--0--------------------2---------------0------
G|--1-------4------4--6--4---------------1------
D|--2---4s6----4s6-------4--4h6--4h6--4--2------
A|--2--------------------2---------------2------
E|--0--------------------0---------------0------

--OR--
E5
e|----------------------------------------------
B|----------------------------------------------
G|----------------------------------------------
D|--9------9------9-11---11-------------------9-
A|--7-9s11---9s11--------9---9h11---9h11--9---7-
E|--0--------------------0--------------------0-

Verse:
E F#
e|--0------2-----
B|--0------2-----
G|--1------2-----
D|--2------4-----
A|--2------4-----
E|--0------2-----

Chorus:
E F# A B
e|--0-----2-----0-----
B|--0-----2-----2-----
G|--1-----2-----2-----
D|--2-----4-----2-----
A|--2-----4-----0-----
E|--0-----2-----0-----

Outro:

repeat fill