Autoscroll Speed
Start AutoscrollingStop Autoscrolling Decrease Autoscrolling speed1Increase Autoscrolling speed


Wrong Turn by Jack Johnson

Tabbed by Fabio F.



Intro and Verse:

e--------0-----0-----------------------------------------------------------|
B---1------1-------1------1-----1---1------1------1---1----1-----1---------|
G-----0------0-------0------0---------0------0----------0----0-------------|
D-------2--------3------2-----0--------------------------------0-----------|
A-3--------------------------------------0----------------2----------------|
E---------------------------------1------------1----3----------------------|



Bridge:...when Jack sings "how long has it been on your mind..."

e--------------------------------------------------------------------------|
B---1------1------1----1------1------1---1----1-----1----1----1-----1------|
G-----0------0-----------0------0----------0----0----------0----0----------|
D-------------------------------------------------0---------------0--------|
A--------0-----3------------0-----3----------2---------------2-------------|
E-1------------------1-----------------3---------------3-------------------|


Then repeat the verse part till the end.


Solo:

e--------------------5-----------------------------------------------------|
B----------------5h8---5-----------------------------------------8--8------|
G--------------------------7----5h7h5---------------------5-7/9------------|
D-------------------------------------7---------------5h7------------------|
A--------------------------------------------------------------------------|
E--------------------------------------------------------------------------|


e--------------------5-----------------------------------------------------|
B----------------5h8---5---------------------------------------------------|
G--------------------------7----5h7h5---------------------4----5/7--5------|
D-------------------------------------7---------------5--------------------|
A--------------------------------------------------------------------------|
E--------------------------------------------------------------------------|



 

 

Wrong Turn by Jack Johnson

Tabbed by Brent Hayden


Here is the main verse/chorus picking pattern. It follows a C-F-G chord pattern

e--------------------0-------------------------------------------------------------------------------------
B-------1---------------1-------1-------1-----------1-----------1-------1------------1------------1---
G-----------0--------------------------------0-----------0--------------------2------------2------------
D---------------2-------------------3------------2-----------0------------------------------------------
A---3-----------------------3------------------------------------------------------0---------------------
E----------------------------------------------------------------------1--------------------------1-------


e----------------------------------
B-------0-----------0-----------0
G-----------0-----------0--------
D----------------------------0----
A---------------2-----------------
E---3-----------------------------


Here is the bridge part, the part that starts “How long has it been on your mind?”


Do this 2x:
e------------------------------------
B------1-------------1------------1 for each of these lyrics in this section, he sings on
G----------2-------------2--------- second time through
D----------------------------------- “how long has it been on your mind?”
A----------------0------------------
E--1--------------------------1-----

Then do this 2x:

e------------------------------------
B------0-------------0------------0
G----------0-------------0---------
D-----------------------------0-----
A----------------2------------------
E--3--------------------------------


Then back to this 2x:

e------------------------------------
B------1-------------1------------1
G----------2-------------2--------- “do you think about it when we laugh?”
D-----------------------------------
A----------------0------------------
E--1--------------------------1-----

Then this 2x again:

e------------------------------------
B------0-------------0------------0
G----------0-------------0---------
D-----------------------------0-----
A----------------2------------------
E--3--------------------------------

Then back to this 2x:

e------------------------------------
B------1-------------1------------1
G----------2-------------2--------- “I think that it’s a big mistake”
D-----------------------------------
A----------------0------------------
E--1--------------------------1-----

Then this 2x again:

e------------------------------------
B------0-------------0------------0
G----------0-------------0---------
D-----------------------------0-----
A----------------2------------------
E--3--------------------------------

Then back to this 2x:

e------------------------------------
B------1-------------1------------1
G----------2-------------2--------- “because I think that we could make it last”
D-----------------------------------
A----------------0------------------
E--1--------------------------1-----

Then this 2x again:

e------------------------------------
B------0-------------0------------0 then on the second time of this, he sings
G----------0-------------0--------- “even it its just for a while” and on “while” he goes
D-----------------------------0----- back into the verse/chorus picking pattern above for
A----------------2------------------ the rest of the song
E--3--------------------------------