Autoscroll Speed
Start AutoscrollingStop Autoscrolling Decrease Autoscrolling speed1Increase Autoscrolling speed

Wrong Turn by Jack Johnson
 

Tabbed by Shawn Foster



Intro/Verse


|---------0------------------------------------------------------------|
|---1-------1---1---1------1-----1---1------1-------------0-----0---0--|
|-----0---------------0------0---------0------0---0-----0-----0--------|
|-------2-----2---3------2-----0----------------------------------0----|
|-3--------------------------------3------0-----------------2----------|
|-----------------------------------------------1-----3----------------|


And I will wait here a while
Just long enough to be
Sure that you
Didn't make a wrong turn


And I wait long enough
Maybe an hour or two
Before I decide
It wasn't me it was you
It wasn't me it was you


And I would like you to know
Although it seems sad to say
This was only the worst
Hour of my day
The worst hour of my day


F --> G (Same finger picking pattern)


How long has it been on your mind
And do you think about it when we lie
I think that it's a big mistake
Cuz I think that we could make it last
Even if it's just for a while


And I will wait here for now
Just long enough to be
Sure that you
Really wanna go through with it
Cuz I really wanna go through with it
Do you really wanna go through with it?

 

Wrong Turn by Jack Johnson

Tabbed by Daisith

Tuning: Normal (EADGBe)



e||----------0-----------------------------------------------------------------||
B||-----1------1---1---1------1-----1---1------1------1---1----1---------------||
G||*------0--------------0------0---------0------0----------0----0---0--------*||
D||*--------2----2---3------2-----0--------------------------------0----------*||
A||---3--------------------------------------0----------------2----------------||
E||-----------------------------------1------------1----3----------------------||
				      #		   #
				      \		   /
				       \	  /
					\        /
					 \     	/
					  \    /
					   \  /
				            \/
					with thumb