Autoscroll Speed
Start AutoscrollingStop Autoscrolling Decrease Autoscrolling speed1Increase Autoscrolling speed

Tabbed by Greg Clemmer 

Lap Slide Tuning: DADFAD


Palm muted
d---------------------------------------                   -------------
a---------------------------------------                   -------------
f---------------------------------------                   -------------
d-----0----------3-s-5p0----5-s-3p0-----                   ----3-s-5 (let ring)
a------------0---3-s-5p0----5-s-3p0-----                   -------------
d---0-----0------3-s-5p0----5-s-3p0------ repeated 4 times -------------

d--------------------------------
a--------------------------------
f--------------------------------
d-------12 slide to 3------------
a--------------------------------
d-------12-slide to 3------------ (alternate picking each string while sliding)

Palm muted
d---------------------------------------
a---------------------------------------
f---------------------------------------
d-----0----------3-s-5p0----5-s-3p0-----
a------------0---3-s-5p0----5-s-3p0-----
d---0-----0------3-s-5p0----5-s-3p0----- repeated 4 times

End palm mute
d----------------------------------------------------
a----------------------------------------------------
f-------0-----------0------------0-----------0-------
d-------------0-----------0------------0-----------0-
a----------------------------------------------------
d----0-----0-----0-----0-----0-----0-----0-----0----- repeat


d-----------------------------------------------------------
a-----------------------------------------------------------
f------0---------- 5-s-- 7------0------5--s--3-----0--------
d------------0---- 5--s--7------0------5--s--3-----0--------
a----------------- 5--s--7------0------5--s--3-----0--------
d---0-----0-------------------------------------------------repeated 4 times



Palm muted
d----------------------------------------------------------------
a----------------------------------------------------------------
f----------------------------------------------------------------
d-----3--3--3--3--3--3--3----5--5--5--5--5--5--5-----0-----------
a-----3--3--3--3--3--3--3----5--5--5--5--5--5--5-----0-----------
d-----3--3--3--3--3--3--3----5--5--5--5--5--5--5-----0—let ring