Autoscroll Speed
Start AutoscrollingStop Autoscrolling Decrease Autoscrolling speed1Increase Autoscrolling speed

Tabbed by: Chris Caceres


The 2 *'s mean you repeat what's in between them, and then number-x is the amount
of repeats including the original, so 3x mean looped 3 times but played 4 total.


h = hammer on
V = Down Strum
 

Enjoy!

(Capo 4)

E||----------------------|----------------------|----------------------|
B||----------------------|----------------------|----------------------|
G||----------------------|----------------------|----------------------|
D||-------2---------2----|-------2---------2----|-------2---------2----|
A||--3---------3---------|--3---------3---------|--2---------2---------|
E||----------------------|----------------------|----------------------|


----------------------|----------------------|----------------------|
----------------------|----------------------|----------------------|
----------------------|----------------------|----------------------|
-------2---------2----|-------2---------2----|-------2---------2----|
--2---------2---------|--0---------0---------|--0---------0---------|
----------------------|----------------------|----------------------|


----------------------|----------------------|----------------------|
----------------------|----------------------|----------------------|
----------------------|----------------------|----------------------|
-------2---------2----|-------2---------2----|-------3---------3----|
----------------------|----------------------|----------------------|
--3---------3---------|--3---------3---------|--1---------1---------|


----------------------|----------------------|----------------------|
----------------------|----------------------|----------------------|
----------------------|----------------------|----------------------|
-------3---------3----|-------0---------0----|-------0---------0----|
----------------------|------------0---------|--2-------------------|
--1---------1---------|--3-------------------|------------3---------|


|-------------------------|------------------------|------------------------|
|---1-------------1-------|--3-------------3-------|--1-------------1-------|
|*----------0-------------|----------0-------------|----------0-------------|
|*-------2-----------2----|-------0-----------0----|-------2-----------2----|
|---3----------3----------|--2----------2----------|--0----------0----------|
|-------------------------|------------------------|------------------------|


------------------------|------------------------|------------------------|
--1-------------0-------|--1-------------1-------|--1-------------1-------|
----------0-------------|----------2-------------|----------2-------------|
-------2-----------0----|-------3-----------3----|-------3-----------3----|
------------------------|------------------------|------------------------|
--3----------3----------|--1----------1----------|--1----------1----------|

3x
-------------------------|---------------------------||------------------------|
--0-------------0--------|-----0-----------0---------||--1-------------1-------|
----------0-----------0--|-----------0-----------0--*||----------0-------------|
-------0-----------0-----|--------0-----------0-----*||-------2-----------2----|
-------------0-----------|--2------------------------||--0----------0----------|
--3----------------------|--------------3------------||------------------------|


------------------------|------------------------|------------------------|
--1-------------0-------|--1-------------1-------|--1-------------1-------|
----------0-------------|----------2-------------|----------2-------------|
-------2-----------0----|-------3-----------3----|-------3-----------3----|
------------------------|------------------------|------------------------|
--3----------3----------|--1----------1----------|--1----------1----------|


-------------------------|--------------------------|----------------0-------|
--0-------------0--------|-----0-----------0--------|--1---------------------|
----------0-----------0--|-----------0-----------0--|----------0-------------|
-------0-----------0-----|--------0-----------0-----|-------2-----------2----|
-------------0-----------|--2-----------------------|--3----------3----------|
--3----------------------|--------------3-----------|------------------------|


----------------0-------|----------------0-------|----------------0-------|
--3---------------------|--1---------------------|--1---------------------|
----------0-------------|----------0-------------|----------0-------------|
-------0-----------0----|-------2-----------2----|-------2-----------0----|
--2----------2----------|--0----------0----------|------------------------|
------------------------|------------------------|--3----------3----------|


----------------1-------|----------------1-------|-------------------------|
--1---------------------|--1---------------------|--0-------------0--------|
----------2-------------|----------2-------------|----------0-----------0--|
-------3-----------3----|-------3-----------3----|-------0-----------0-----|
------------------------|------------------------|-------------0-----------|
--1----------1----------|--1----------1----------|--3----------------------|


--------------------------||-------------------------|------------------------|
-----0-----------0--------||---1-------------1-------|--3-------------3-------|
-----------0-----------0--||*----------0-------------|----------0-------------|
--------0-----------0-----||*-------2-----------2----|-------0-----------0----|
--2-----------------------||---3----------3----------|--2----------2----------|
--------------3-----------||-------------------------|------------------------|


------------------------|------------------------|------------------------|
--1-------------1-------|--1-------------0-------|--1-------------1-------|
----------0-------------|----------0-------------|----------2-------------|
-------2-----------2----|-------2-----------0----|-------3-----------3----|
--0----------0----------|------------------------|------------------------|
------------------------|--3----------3----------|--1----------1----------|


3x
------------------------|-------------------------|---------------------------||
--1-------------1-------|--0-------------0--------|-----0-----------0---------||
----------2-------------|----------0-----------0--|-----------0-----------0--*||
-------3-----------3----|-------0-----------0-----|--------0-----------0-----*||
------------------------|-------------0-----------|--2------------------------||
--1----------1----------|--3----------------------|--------------3------------||


-------------------------|------------------------|------------------------|
---1-------------1-------|--1-------------0-------|--1-------------1-------|
*----------0-------------|----------0-------------|----------2-------------|
*-------2-----------2----|-------2-----------0----|-------3-----------3----|
---0----------0----------|------------------------|------------------------|
-------------------------|--3----------3----------|--1----------1----------|


------------------------|-------------------------|---------------------------||
--1-------------1-------|--0-------------0--------|-----0-----------0---------||
----------2-------------|----------0-----------0--|-----------0-----------0--*||
-------3-----------3----|-------0-----------0-----|--------0-----------0-----*||
------------------------|-------------0-----------|--2------------------------||
--1----------1----------|--3----------------------|--------------3------------||


----------------0-------|----------------0-------|----------------0-------|
--1---------------------|--3---------------------|--1---------------------|
----------0-------------|----------0-------------|----------0-------------|
-------2-----------2----|-------0-----------0----|-------2-----------2----|
--3----------3----------|--2----------2----------|--0----------0----------|
------------------------|------------------------|------------------------|


----------------0-------|------------------------|------------------------|
--1---------------------|--1-------------1-------|--1-------------1-------|
----------0-------------|----------2-------------|----------2-------------|
-------2-----------0----|-------3-----------3----|-------3-----------3----|
------------------------|------------------------|------------------------|
--3----------3----------|--1----------1----------|--1----------1----------|


-------------------------|--------------------------|------------------------|
--0-------------0--------|-----0-----------0--------|--1-------------1-------|
----------0-----------0--|-----------0-----------0--|----------0-------------|
-------0-----------0-----|--------0-----------0-----|-------2-----------2----|
-------------0-----------|--2-----------------------|--0----------0----------|
--3----------------------|--------------3-----------|------------------------|


------------------------|------------------------|------------------------|
--1-------------0-------|--1-------------1-------|--1-------------1-------|
----------0-------------|----------2-------------|----------2-------------|
-------2-----------0----|-------3-----------3----|-------3-----------3----|
------------------------|------------------------|------------------------|
--3----------3----------|--1----------1----------|--1----------1----------|


-------------------------|------------------------|------------------------|
--0h-1-----------1-------|--1-------------0-------|--1-------------1-------|
-----------0-------------|----------0-------------|----------2-------------|
--------2-----------2----|-------2-----------0----|-------3-----------3----|
--0-----------0----------|------------------------|------------------------|
-------------------------|--3----------3----------|--1----------1----------|


------------------------|-------------------------|--------------------------|
--1-------------1-------|--0-------------0--------|-----0-----------0--------|
----------2-------------|----------0-----------0--|-----------0-----------0--|
-------3-----------3----|-------0-----------0-----|--------0-----------0-----|
------------------------|-------------0-----------|--2-----------------------|
--1----------1----------|--3----------------------|--------------3-----------|


|-----------------0-------|----------------0-------|----------------0-------|
|---1---------------------|--3---------------------|--1---------------------|
|*----------0-------------|----------0-------------|----------0-------------|
|*-------2-----------2----|-------0-----------0----|-------2-----------2----|
|---3----------3----------|--2----------2----------|--0----------0----------|
|-------------------------|------------------------|------------------------|


----------------0-------|------------------------|------------------------|
--1---------------------|--1-------------1-------|--1-------------1-------|
----------0-------------|----------2-------------|----------2-------------|
-------2-----------0----|-------3-----------3----|-------3-----------3----|
------------------------|------------------------|------------------------|
--3----------3----------|--1----------1----------|--1----------1----------|


-------------------------|---------------------------||------------------------|
--0-------------0--------|-----0-----------0---------||--1-------------1-------|
----------0-----------0--|-----------0-----------0--*||----------0-------------|
-------0-----------0-----|--------0-----------0-----*||-------2-----------2----|
-------------0-----------|--2------------------------||--0----------0----------|
--3----------------------|--------------3------------||------------------------|


------------------------|------------------------|------------------------|
--1-------------0-------|--1-------------1-------|--1-------------1-------|
----------0-------------|----------2-------------|----------2-------------|
-------2-----------0----|-------3-----------3----|-------3-----------3----|
------------------------|------------------------|------------------------|
--3----------3----------|--1----------1----------|--1----------1----------|


-------------------------|--------------------------|----------------0-------|
--0-------------0--------|-----0-----------0--------|--1---------------------|
----------0-----------0--|-----------0-----------0--|----------0-------------|
-------0-----------0-----|--------0-----------0-----|-------2-----------2----|
-------------0-----------|--2-----------------------|--3----------3----------|
--3----------------------|--------------3-----------|------------------------|


----------------0-------|----------------0-------|----------------0-------|
--3---------------------|--1---------------------|--1---------------------|
----------0-------------|----------0-------------|----------0-------------|
-------0-----------0----|-------2-----------2----|-------2-----------0----|
--2----------2----------|--0----------0----------|------------------------|
------------------------|------------------------|--3----------3----------|


----------------1-------|----------------1-------|-------------------------|
--1---------------------|--1---------------------|--0-------------0--------|
----------2-------------|----------2-------------|----------0-----------0--|
-------3-----------3----|-------3-----------3----|-------0-----------0-----|
------------------------|------------------------|-------------0-----------|
--1----------1----------|--1----------1----------|--3----------------------|

V
--------------------------|-------------------||
-----0-----------0--------|--1----------------||
-----------0-----------0--|--0----------------||
--------0-----------0-----|--2----------------||
--2-----------------------|--3----------------||
--------------3-----------|-------------------||