Autoscroll Speed
Start AutoscrollingStop Autoscrolling Decrease Autoscrolling speed1Increase Autoscrolling speed

Astair by Matt Costa
 
Tabbed by Fabio F.


 
CAPO 4th FRET

INTRO:
 
e------------------|------------------|------------------|------------------|------------------|------------------|
B------------------|------------------|------------------|------------------|------------------|------------------|
G------------------|------------------|------------------|------------------|------------------|------------------|
D----2---2---2---2-|----2---2---2---2-|----2---2---2---2-|----2---2---2---2-|----3---3---3---3-|----0---0---0---0-|
A--3---3---3---3---|--2---2---2---2---|--0---0---0---0---|------------------|------------------|------0---2-------|
E------------------|------------------|------------------|--3---3---3---3---|--1---1---1---1---|--3-----------3---|



VERSE: This is a bit ragtime, listen to the song for tempo

                                     +|........................................Matt also plays this in the BRIDGE.........................................|+

e------------------|------------------|------------------|------------------|------------------|------------------|------------------|--------------------|
B--1---------1-----|--3---------3-----|--1---------1-----|--1---------0-----|--1---------1-----|--1---------1-----|--0---------0-----|----0-------0-------|
G--------0---------|--------0---------|--------2---------|--------2---------|--------2---------|--------2---------|--------0---------|--------0-------0---|
D------2-------2---|------0-------0---|------2-------2---|------2-------2---|------3-------3---|------3-------3---|------0-------0---|------0-------0-----|
A--3-------3-------|--2-------2-------|--0-------0-------|------------------|------------------|------------------|----------0-------|--2-----------------|
E------------------|------------------|------------------|--3-------3-------|--1-------1-------|--1-------1-------|--3---------------|----------3---------|


REFRAIN:

e-(0)--------0-----|------------0-----|------------0-----|------------0-----|------------1-----|------------1-----|------------------|--------------------|
B--1---------------|--3---------------|--1---------------|--1---------------|--1---------------|--1---------------|--0---------0-----|----0-------0-------|
G--------0---------|--------0---------|--------2---------|--------2---------|--------2---------|--------2---------|--------0---------|--------0-------0---|
D------2-------2---|------0-------0---|------2-------2---|------2-------2---|------3-------3---|------3-------3---|------0-------0---|------0-------0-----|
A--3-------3-------|--2-------2-------|--0-------0-------|------------------|------------------|------------------|----------0-------|--2-----------------|
E------------------|------------------|------------------|--3-------3-------|--1-------1-------|--1-------1-------|--3---------------|----------3---------|