Autoscroll Speed
Start AutoscrollingStop Autoscrolling Decrease Autoscrolling speed1Increase Autoscrolling speed

This is just the chords, he plays the song with an arpeggio so 
if you hear the song, you arpeggio these chords.

Intro:
e ------------------------------|
B ----4/0--1--0-----------------|
G ---------------2--------------|
D ------------------5--4--2-----|
A ----6/2--3--2--0--------------|
E ------------------3--2--0-----|

Verse:
     E     G     A     C     B     C     B
e ---0-----3-----5-----8-----7-----8-----7----------------|
B ---0-----3-----5-----8-----7-----8-----7----------------|
G ---1-----4-----6-----9-----8-----9-----8----------------|  2x
D ---2-----5-----7-----10----9-----10----9----------------|
A ---2-----5-----7-----10----9-----10----9----------------|
E ---0-----3-----5-----8-----7-----8-----7---3----2---0---|

Pre Chorus:
     B     C     B
e ---7-----8-----7---------------|
B ---7-----8-----7---------------|
G ---8-----9-----8---------------|
D ---9-----10----9---------------|
A ---9-----10----9---------------|
E ---7-----8-----7---3----2------|

Chorus:
e -------------------------------------------------------------------------|
B -------------------------------------------------------------------------|
G -9-9-9-9-9-9-9-9-7-7-7-7-7-7-7-7-----------------------------------------|
D -9-9-9-9-9-9-9-9-7-7-7-7-7-7-7-7-10-10-10-10-10-10-10-10-9-9-9-9-9-9-9-9-|
A -7-7-7-7-7-7-7-7-5-5-5-5-5-5-5-5-10-10-10-10-10-10-10-10-9-9-9-9-9-9-9-9-|
E ---------------------------------8--8--8--8--8--8--8--8--7-7-7-7-7-7-7-7-|

For the Bridge, you can play the chords from the verse, its kind of tricky, but if you 
you should be able to pick it up.