Autoscroll Speed
Start AutoscrollingStop Autoscrolling Decrease Autoscrolling speed1Increase Autoscrolling speed

Tabbed by: Greg Clemmer


Tuning: Drop D
Capo: 2nd Fret

  E    B   A   C#
--2----0---0---0----
--3----2---0---0----
--2----2---0---4----
--0----2---5---4----
--0----0---5---2----
--0----0---5---0----
 
If you listen to the song, you can play along to practice the rhythm. Matt does 
this thing where he hits the bass note hard, and then slap the chord and repeats 
the process over and over again. Sounds pretty neat, here goes nothing…

Intro (relative to Capo)
-------------------
-------------------
-4p2---------------
-0----3h4-0---0----
-------------------
-------------0---0—

 

E   B          A           B                E      B       C#          A         E  
Sunshine I’d really like to tell you all my sunshine even though your skies are blue you’re 
      B          C#            A            E        B               E       B  A   
drying up my bed how can I get any rest now sha la la la la la la la la someday you will 
         B            E     B           C#        A        E            B         C#    
get the best of me oh someday probably when I’m old and grey I’m lying in my bed and I 
              A              E          B           E
will soon be put to rest now sha la la la la la la la
 
 
 
Solo (over chords / relative to capo)
 ---------5----5-----5-----5----5-5h7-5---------------------
 -------5h7--5h7---5h7---5h7--5h7--------5h7-5----------
 ---------------------------------------7------------------
 -----------------------------------------------------------------
 -0-2-5----------------------------------------------------------
 ------------------------------------------------------------------
 
 -----5----5-----5-----5----5-5h7-5--10-7-5--------5-5-----
 ---5h7--5h7---5h7---5h7--5h7----------------8--5/7-----5-
 ------------------------------------------------------------------
 ------------------------------------------------------------------
 ------------------------------------------------------------------
 ------------------------------------------------------------------
 
 --5h7-5------------5-------------------5-5----------------
 ---------5h7p5---5/7--5/7---5-7-5h7p5---5/7---------------
 ------------7--------------------7---------------------------
 ------------------------------------------------------------------
 ------------------------------------------------------------------
 ------------------------------------------------------------------
 
 

E   B         A            B                E      B       C#          A         E  
Sunshine I’d really like to tell you all my sunshine even though your skies are blue you’re 
      B          C#             A           E           B            E       B  A   
drying up my bed how can I get any rest now sha la la la la la la la la someday you will 
         B             E    B           C#       A         E            B         C#    
get the best of me oh someday probably when I’m old and grey I’m lying in my bed and I 
             A               E      B             E(let ring) B            A
will soon be put to rest now                      I’m lying in my bed and I will soon be 
 B                E     B   C#    A   E         B             C#                  
put to rest now ooooh oooh oooh oooh  I’m lying in my bed and I will soon 
    A                E    B    C#   A        E       B            E(let ring)
be put to rest now ooooh oooh oooh oooh     sha la la la la la la laaaaa…