Autoscroll Speed
Start AutoscrollingStop Autoscrolling Decrease Autoscrolling speed1Increase Autoscrolling speed

Tabbed by tig

One of my favorite songs by Matt Costa.
So I spend some time on tabbing the missing intro and interlude.
It should be very easy to play. Enjoy!

Intro

e--------------------------------------------------------------------------------------|
B---2~---2-----------------------------------------------------------------------------|
G----------8-7-5---5-7-7-7/8-----5-5-5/7---5-------8-7-5-7---5-8-7-5-------------------|
D------------------------------8---------------8---------------------8-----------5-7---|
A--------------------------------------------------------------------------8-8-8-------|
E--------------------------------------------------------------------------------------|

Interlude 1

e--------------------------------------------------------------------------------------|
B--------------------------------------------------------------------------------------|
G----------5-7-7/8--7---5---8-7-5-7---5-8-7-5------------------------------------------|
D---8----8------------------------------------8----------------------------------------|
A-------------------------------------------------8-8-8-6-5----------------------------|
E--------------------------------------------------------------------------------------|

Interlude 2

e--------------------------------------------------------------------------------------|
B--------------------------------------------------------------------------------------|
G----------5-7-7/8--7---5---8-7-5-7---5-8-7-5------------------------------------------|
D---8----8------------------------------------8----------------------------------------| 
A--------------------------------------------------------------------------------------|
E--------------------------------------------------------------------------------------|

 

Tabbed by Ellis Atwood 
 
If you want to do the bass line, put a capo on the first fret.  
The fingerings here are without capo.  For rhythm and bass notes, just listen to the song.  It shouldn't be too difficult.


Intro

E||----------------------|
B||----------------------|
G||--------3-------------|
D||--1-2-3---------------|
A||-1--------------------|
E||----------1--3--5--7--|


 
     A#
My sweet rose
                  F
As the two of us grow
               A#
I want you to know that nothing's quite as bad
       D#
As it seems when you're so sad
       A#               F          A#
So remember my rose, remember my rose

A#
My sweet rose
     F
I'd like to say
      A#                                 
I'd like to say no one always gets their way
D#                        
And no one always thinks the same
    A#      F          A#
My rose, remember my rose

                   F
When the seasons change
                   D#
And the sky turns grey
                       F
When the leaves turn brown
           D#
I'll be around

          A#
My sweet rose
                   F
As the two of us change
               A#                     
I want you to know that nothing stays the same
     D#
But you and I, we will remain
    A#      F         A#
My rose, remember my rose

                   F
When the seasons change
                   D#
And the sky turns grey
                       F
When the leaves turn brown
           D#
I'll be around
               A#                     
I want you to know that nothing stays the same
     D#
But you and I, we will remain
    A#      F         A#
My rose, remember my rose

 

Chords:

     A#     D#      F#
E||--6-----6-------8------|
B||--6-----8-------10-----|
G||--7-----8-------10-----|
D||--8-----8-------10-----|
A||--8-----6-------8------|
E||--6-----6-------8------|
 

Bass lines

A# -> 6(e) 1(e) 6(e) 1(e) (remember the capo so you don't have to hit those 1's)
D# -> 6(a) 6(e) 6(a) 6(e)
F# -> 8(a) 8(e) 8(a) 8(e)