Autoscroll Speed
Start AutoscrollingStop Autoscrolling Decrease Autoscrolling speed1Increase Autoscrolling speed

Tabbed by: fretless fernando

note: the order is wrong and u have to figure out the strumming yourself. 
I'm a little lazy

verse: just repeat throughout the verse
---------------------------------------|
---------------------------------------|
---------------------------------------|
-5---5-5-5-5------------5--5-----------|
-5---5-5-3h5------------5--5-----------|
-3---3-3-3-3------------3--3-----------|

"black seeing black"
----------------------------------------|
----------------------------------------|
-2--------------------------------------|
-3---------5-5-5-5----------------------|
-3---------5-5-5-3-h-5------------------|
-1---------3-3-3-3----------------------|

"u gave me your word then u run run run run.................never looking back"
------------------------------------------------|
------------------------------------------------|
-5--------7-------------------------------------|         (figure out the strumming)
-5--------7-------3-----------------------------|
-3--------5-------3-----------------------------|
------------------1-----------------------------|

"u can run and u can hide but u wont get away this time"
---------------------------------|
---------------------------------|
3-----5--------------------------|
3-----5-- 5-5-5-5-5--------------|
1-----3---5-5-5-3h5--------------|
----------3-3-3-3-3--------------|